e|-0000000000---------------33----333------------
b|-1111111111---------------00----000------------
g|-2222222222----000000----00----000------------x3
D|-2222222222----222222--------------------------
A|-0000000000----222222----22--------------------
E|-----------------00000-----33--3-----------------

A long time ago... in a foreign place...
There was a Boy... Alone theree...
---------- By hymself...
--------------------------------------
thinking thinking 'bout what to do...


My tab sucks... lol
I'ts not correct at all... hehe
I'ts the first tab that I've ever create...
So.. This is my song...